Gitarre: Blueszupfen mit 6er und 7er-Akkorden Wiederh.


Eine kleine Wiederholung aus dem Balladendiplom. Die Theorie zu den Intervallen (Sexte und Septime) kann man sich noch einmal dort bei der Lektion "Blueszupfen mit 6er und 7er-Akkorden" vergegenwärtigen

die benötigten Akkorde
Crd E.svg Crd E6 022120.svg Crd E7 022130.svg
Crd A.svg Crd A6 002222.svg Crd A7 002223.svg
Crd H7.svg
 E      E6    E7    E6    E   6   7   6     E   6   7   6     E   6   7   6
|-----------------------|-----------------|-----------------|------------------|
|-0-----2-----3-----2---|-0---2---3---2---|-0---2---3---2---|-0---2---3---2----|
|---1-----1-----1-----1-|---1---1---1---1-|---1---1---1---1-|---1---1---1---1--|
|-----------------------|-----------------|-----------------|------------------|
|-----------------------|-----------------|-----------------|------------------|
|-0-----0-----0-----0---|-0---0---0---0---|-0---0---0---0---|-0---0---0---0----|

 A      A6    A7    A6    A   6   7   6     E   6   7   6     E   6   7   6
|-0-----2-----3-----2---|-0---2---3---2---|-----------------|------------------|
|---2-----2-----2-----2-|---2---2---2---2-|-0---2---3---2---|-0---2---3---2----|
|-----------------------|-----------------|---1---1---1---1-|---1---1---1---1--|
|-----------------------|-----------------|-----------------|------------------|
|-0-----0-----0-----0---|-0---0---0---0---|-----------------|------------------|
|-----------------------|-----------------|-0---0---0---0---|-0---0---0---0----|

  H7                A                 E   6   7   6     H7
|-2---2---2---2---|-0---0---0---0---|-----------------|-2---2---2---2----|
|---0---0---0---0-|---2---2---2---2-|-0---2---3---2---|---0---0---0---0--|
|-----------------|-----------------|---1---1---1---1-|------------------|
|-----------------|-----------------|-----------------|------------------|
|-2---2---2---2---|-0---0---0---0---|-----------------|-2---2---2---2----|
|-----------------|-----------------|-0---0---0---0---|------------------|

ÜbungsbeispieleBearbeiten