Hauptmenü öffnen

Picking-Pattern kombinierenBearbeiten

Etwas wirklich Neues kommt eigentlich nicht hinzu. Hier wird nochmal alles vorher Gelernte ein wenig zusammengefasst und miteinander kombiniert.

Greifen wir nochmal auf ein Zupfmuster aus dem Folkdiplom zurück.

 

Wenn das Zupfmuster wieder klappt, kann die Akkordfolge auf das Basis-Patter übertragen werden.

  C       C/A       Am             
|-------0-------0-|-------0-------0-|
|---1-------1-----|---1-------1-----|
|-----0-------0---|-----2-------2---|
|-----------------|---------2-------|
|-3-------2-------|-0---------------|
|-----------------|-----------------|

  F                 C/G
|-------1-------1-|-------3-------3-|
|---1-------1-----|---0-------0-----|
|-----2-------2---|-----0-------0---|
|-3---------------|-----------------|
|---------0-------|---------2-------|
|-----------------|-3---------------|

Sobald die Akkordfolge mit dem Basis-Patter fließt (20mal und öfter üben), kann man es auf das Travis-Picking übertragen.

  C       C/A      Am             
|-0-----0--------|-0-----0--------|
|---1-------1----|---1-------1----|
|-----0-------0--|-----2-------2--|
|----------------|---------2------|
|-3-------2------|-0--------------|
|----------------|----------------|

  F                C/G
|-1-----1--------|-3-----3--------|
|---1-------1----|---0-------0----|
|-----2-------2--|-----0-------0--|
|-3--------------|----------------|
|---------0------|---------2------|
|----------------|-3--------------|

Zu guter Letzt fehlt noch das Folkpicking.

  C       C/A     Am           
|------0--------|------0--------|
|----------1----|----------1----|
|----0-------0--|----2-------2--|
|---------------|--------2------|
|-3------2------|-0-------------|
|---------------|---------------|

  F               C/G
|------1--------|------3--------|
|----------1----|----------0----|
|----2-------2--|----0-------0--|
|-3-------------|---------------|
|--------0------|--------2------|
|---------------|-3-------------|


Wie man sieht, nichts neues. Bei unseren Übungen aus den letzten Lektionen hatten wir mittendrin das Picking-Pattern gewechselt. Dies machen wir jetzt ein wenig gezielter. Wir wechseln zwei Zupfmuster jeden Takt ab.

Als Übungsbeispiele nehmen wir die Akkordfolge von oben. Natürlich lässt sich die Übung auch mit der Etüde aus den letzten Lektionen (wo immer das D verschoben wurde) ausfürhen. Dort braucht man weniger auf die Akkorde zu achten. Da der Akkord nur alle zwei Takte wechselt, kann die Etüde als Einstieg etwas einfacher sein. Aber wenn ihr die Zupfmuster von vorhin nur halbwegs hinbekommen habt, dann solltet ihr sie auch mit einem Akkordwechsel bei jedem Takt hinbekommen.

1.) Folk-Picking wird mit dem Basis-Picking kombiniert.
  Folk           Basis           
  C       C/A    Am             
|------0-------|-------0-------0-|
|----------1---|---1-------1-----|
|----0-------0-|-----2-------2---|
|--------------|---------2-------|
|-3------2-----|-0---------------|
|--------------|-----------------|

  Folk           Basis
  F              C/G
|------1-------|-------3-------3-|
|----------1---|---0-------0-----|
|----2-------2-|-----0-------0---|
|-3------------|-----------------|
|--------0-----|---------2-------|
|--------------|-3---------------|
2.) Travis wird mit Basis kombiniert
  Travis          Basis           
  C       C/A     Am             
|-0-----0-------|-------0-------0-|
|---1-------1---|---1-------1-----|
|-----0-------0-|-----2-------2---|
|---------------|---------2-------|
|-3-------2-----|-0---------------|
|---------------|-----------------|

  Travis          Basis
  F               C/G
|-1-----1-------|-------3-------3-|
|---1-------1---|---0-------0-----|
|-----2-------2-|-----0-------0---|
|-3-------------|-----------------|
|---------0-----|---------2-------|
|---------------|-3---------------|
3.) Basis + Folk (Das selbe wie in 1, nur Basis kommt zuerst)
  Basis             Folk         
  C       C/A       Am           
|-------0-------0-|------0-------|
|---1-------1-----|----------1---|
|-----0-------0---|----2-------2-|
|-----------------|--------2-----|
|-3-------2-------|-0------------|
|-----------------|--------------|

  Basis             Folk
  F                 C/G
|-------1-------1-|------3-------|
|---1-------1-----|----------0---|
|-----2-------2---|----0-------0-|
|-3---------------|--------------|
|---------0-------|--------2-----|
|-----------------|-3------------|
4.) Basis + Travis
Es kommt zu einer netten Nahtstelle.

Auf die Bezeichnung für jeden einzelnen Takt verzichte ich ab hier

  C       C/A       Am             
|-------0-------0-|-0-----0-------|
|---1-------1-----|---1-------1---|
|-----0-------0---|-----2-------2-|
|-----------------|---------2-----|
|-3-------2-------|-0-------------|
|-----------------|---------------|

  F                 C/G
|-------1-------1-|-3-----3-------|
|---1-------1-----|---0-------0---|
|-----2-------2---|-----0-------0-|
|-3---------------|---------------|
|---------0-------|---------2-----|
|-----------------|-3-------------|
5.) Folk + Travis
|------0-------|-0-----0-------|
|----------1---|---1-------1---|
|----0-------0-|-----2-------2-|
|--------------|---------2-----|
|-3------2-----|-0-------------|
|--------------|---------------|


|------1-------|-3-----3-------|
|----------1---|---0-------0---|
|----2-------2-|-----0-------0-|
|-3------------|---------------|
|--------0-----|---------2-----|
|--------------|-3-------------|
6.) und mit Travis + Folk haben wir alle 6 möglichen Kombinationen durch.
|-0-----0-------|------0-------|
|---1-------1---|----------1---|
|-----0-------0-|----2-------2-|
|---------------|--------2-----|
|-3-------2-----|-0------------|
|---------------|--------------|

|-1-----1-------|------3-------|
|---1-------1---|----------0---|
|-----2-------2-|----0-------0-|
|-3-------------|--------------|
|---------0-----|--------2-----|
|---------------|-3------------|

Sobald ihr in der Lage seid, die Picking-Muster wahllos aneinander zu reihen, wird kaum ein Laie noch heraushören können was ihr da eigentlich spielt. Mit nur 3 Piching-Muster und ein wenig Basslauf bekommt ihr eine recht interessante Begleitung hin.

Und sobald ihr ein wenig sicherer seid, fangt ihr selbst an, einfach aus dem Bauch heraus zu kombinieren. Z.B. folgendes:

  Folk            Travis         
|------0-------|-0-----0-------|
|----------1---|---1-------1---|
|----0-------0-|-----2-------2-|
|--------------|---------2-----|
|-3------2-----|-0-------------|
|--------------|---------------|

  Basis         1/2 Travis 1/2 Basslauf
|-------1-------1-|-3-----3---------|
|---1-------1-----|---0-----1---3---|
|-----2-------2---|-----0-----0---0-|
|-3---------------|-----------------|
|---------0-------|---------0---2---|
|-----------------|-3---------------|

Zum Schluss wurde noch ein Basslauf mit eingefügt, der in ähnlicher Form schon mal beim Folkdiplom vorgekommen ist. Wem das zu schwer sein sollte, kann eine kurze Vorübung machen.

                         Verkürzter G-Dur
|-------------------|  A|---|---|---|
|-1----0----1---3---|  K|---|---|-R-|
|---0----0----0---0-|  K|---|---|---|
|-------------------|  O|---|---|---|
|-3---------0---2---|  R|---|-M-|---|
|------3------------|  D|---|---|---|

Wem C Am F G zu langweilig wird, versuche es mal mit G Em C D. Zur Erinnerung: das F# im Bass wird mit dem Zeigefinger gegriffen, dann kann der Mittelfinger für den Em einfach liegen bleiben.

  G       G/F#      Em             
|-------3-------3-|-------0-------0-|
|-----0-------0---|-----0-------0---|
|---0-------0-----|---0-------0-----|
|-----------------|-----------------|
|-----------------|---------2-------|
|-3-------2-------|-0---------------|

  C                 D
|-------0-------0-|-------2-------2-|
|-----1-------1---|-----3-------3---|
|---0-------0-----|---2-------2-----|
|---------2-------|-0---------------|
|-3---------------|---------0-------|
|-----------------|-----------------|

Damit wäre die kurze Einführung in das 3-Finger-Picking abgeschlossen. Natürlich waren die 4 Lektionen nur ein Hineinschnuppern in die Materie und es bleibt zu Hoffen, dass die Neugier auf mehr geweckt wurde.

Sobald du mit dem 3-Finger-Picking genügend Routine bei der Begleitung von Liedern gesammelt hast, lohnt es sich mit der Einführung in das Melodiepicking weiterzumachen.